Jupiter Sunrise Forum
Welcome, Guest. Please Login or Register.
Jan 16th, 2006, 5:54am

News: Talk amongst yourselves..................
Home Home Help Help Search Search Members Members Login Login Register Register

   Jupiter Sunrise Forum
   Talk
   Talk Amongst Yourselves

   JS guitar tabs
« Previous topic | Next topic »
Pages: 1  Reply Reply Notify of replies Notify of replies Send Topic Send Topic Print Print
   Author  Topic: JS guitar tabs  (Read 189 times)
Skunkwaffle
YaBB Full Member
***



I love pants, I hate gravity

   
Email

Gender: male
Posts: 171
JS guitar tabs
« on: Jul 25th, 2004, 11:37pm »
Quote Quote Modify Modify

Okay people here we go:
 
Cherry Wine
 
The intro/verses are fingerpicked the (pre)chorus/bridge is strumed.
 
 
Here's the finger picking pattern.
 
  D11 A Bm  
 
E|-----------5-------|----------0-------|----------2-------|
B|-----3-------3---3-|----3-------3---3-|----3-------3---3-|
G|-------2-------2---|------3-----------|------4-----------|
D|---0-----0---------|--------3-----3---|------------------|
A|-------------------|--0---------------|--2-----2-----2---|
E|-------------------|------------------|------------------|
 
  F#sus5 G A
E|----------2-------|----------3-------|----------0-------|
B|----2-------2---2-|----3-------3---3-|----3-------3---3-|
G|------2-----------|------4-----------|------3-----------|
D|------------------|------------------|--------3-----3---|
A|--------4-----4---|--------5-----5---|--0---------------|
E|--2---------------|--3---------------|------------------|
 
Intro:  
 
D11 X 4
 
Verse:
 
D11 A Bm
Days filled with cherry wine  
  F#sus5
Telling you there's something about yourself
  G A
that someone could've just told you if they were  
D11 A Bm
honest like cherry wine
  F#sus5
It brings you clarity and brings you spite
  G A
and everything but what you really want and
D11 A Bm
You're my cherry wine
  F#sus5
Telling me there's something about myself
 Bm F#sus5
I really don't want to know  
  Bm F#sus5
so why not drown me in a state of
G A
Discontent
 
 
Prechorus:
 
D11 A Bm G
Why not drown me?
 
 
Chorus:
  Dsus5 Asus5 Bsus5 Gsus5  
Uh-ah-----ehy-ah-----ehy-ah-----ehy-ah-----
 
 
Bridge:  
(the bridge is just the chorus riff with some octive slides over it.)
 
E|----------------------|----------------------|
B|----------------------|----------------------|
G|----7--7--7--7--7--7--|--7/9--9--9--9--9--9--|
D|----------------------|----------------------|
A|----5--5--5--5--5--5--|--5/7--7--7--7--7--7--|
E|----------------------|----------------------|
 
 you dont have to change your clothes for me
 someone took that away from me
 ago-------------------------------------------
 You're my cherry wine
 
 
E|----------------------|-----------------------|
B|----------------------|-----------------------|
G|--9/11-11-11-11-11-11-|--11/12-12-12-12-12-12-|
D|----------------------|-----------------------|
A|--7/9---9--9--9--9--9-|---9/10-10-10-10-10-10-|
E|----------------------|-----------------------|
  I'm nobody special
  so long  
-----------------------------------------------
 
Chorus:
  Dsus5 Asus5 Bsus5 Gsus5  
Uh-ah-----ehy-ah-----ehy-ah-----ehy-ah
 
 
Outro: (strum each chord only once)
 
D11 A Bm  
Days filled with cherry wine
« Last Edit: Jul 25th, 2004, 11:47pm by Skunkwaffle » IP Logged

If only we had the power...
Skunkwaffle
YaBB Full Member
***



I love pants, I hate gravity

   
Email

Gender: male
Posts: 171
Re: JS guitar tabs
« Reply #1 on: Jul 25th, 2004, 11:48pm »
Quote Quote Modify Modify

Tell me if this is any help.  I've got more songs if anyone want's 'em.
IP Logged

If only we had the power...
liv
YaBB God/goddess
*****





   
Email

Gender: female
Posts: 787
Re: JS guitar tabs
« Reply #2 on: Jul 26th, 2004, 3:26am »
Quote Quote Modify Modify

Wow, way to go!  That was great of you to go the effort to post those tabs.  Smiley
IP Logged

I believe in luck and money, I've got ten bucks and a honey ... G. Love

Many were the barks and giggles coming from the shrubbery ... Edward Gorey
Skunkwaffle
YaBB Full Member
***



I love pants, I hate gravity

   
Email

Gender: male
Posts: 171
Re: JS guitar tabs
« Reply #3 on: Jul 27th, 2004, 8:29pm »
Quote Quote Modify Modify

try this on for size
 
E|----------|--7-------9-|--5--4-------|---------0--4-|
B|--5------ |-------------|---------7--|-0-------------|
G|----------|-------------|------------|---------------|
D|----------|-------------|------------|---------------|
A|----------|-------------|------------|---------------|
E|----------|-------------|------------|---------------|
« Last Edit: Jul 27th, 2004, 8:34pm by Skunkwaffle » IP Logged

If only we had the power...
Ashley
YaBB God/goddess
*****



www.brianmay.co m

    ashleythrockstar
WWW Email

Gender: female
Posts: 3311
Re: JS guitar tabs
« Reply #4 on: Jul 28th, 2004, 3:52pm »
Quote Quote Modify Modify

hmm... that looks vaguely like a certain track 11
IP Logged

Love dares you to care for the people on the edge of the night and love dares us to change our way of caring about ourselves. This is our last dance. This is ourselves under pressure.
Skunkwaffle
YaBB Full Member
***



I love pants, I hate gravity

   
Email

Gender: male
Posts: 171
Re: JS guitar tabs
« Reply #5 on: Jul 29th, 2004, 7:11am »
Quote Quote Modify Modify

Might just be...  I've got more, but I have to go to work, so I'll type them out later.
IP Logged

If only we had the power...
Antoinette Best
Guest

Email

Re: JS guitar tabs
« Reply #6 on: Feb 26th, 2005, 7:02am »
Quote Quote Modify Modify Remove Remove

Hello ,
 
I'm looking for the guitar tabs for the song "Steal Me" Could anyone pleae help me with this Huh??
IP Logged
Skunkwaffle
YaBB Full Member
***



I love pants, I hate gravity

   
Email

Gender: male
Posts: 171
Re: JS guitar tabs
« Reply #7 on: Mar 2nd, 2005, 6:52pm »
Quote Quote Modify Modify

The one up there that isn't Cherry Wine, is the begining of it.  I'm working on Kaye right now, if anyone else has already finished it maybe you could post it??  I'll try and figure out Steal Me next.
IP Logged

If only we had the power...
Ashley
YaBB God/goddess
*****



www.brianmay.co m

    ashleythrockstar
WWW Email

Gender: female
Posts: 3311
Re: JS guitar tabs
« Reply #8 on: Mar 2nd, 2005, 8:56pm »
Quote Quote Modify Modify

Kaye I believe is in A (at least that's how I play it), and is just A E F#m D for most of it with a few variations, like "I am never here and it's..."  A E/G# G or something like that.  oh and in the bridge ("hard enough to breathe...") it'd be Bm D A D A   Bm D A D A E D
then back to the A E F#m D chorus.
 
that's all assuming it's in A which I'm not positive of... lol
IP Logged

Love dares you to care for the people on the edge of the night and love dares us to change our way of caring about ourselves. This is our last dance. This is ourselves under pressure.
Pages: 1  Reply Reply Notify of replies Notify of replies Send Topic Send Topic Print Print

« Previous topic | Next topic »

Powered by YaBB 1 Gold - SP 1.4!
Forum software copyright 2000-2004 Yet another Bulletin Board